2ちゃんねる ★スマホ版★ ■掲示板に戻る■ 全部 1- 最新50  

■ このスレッドは過去ログ倉庫に格納されています

∞ SILVER SUN Part 2 ∞

1 :名盤さん:2006/07/21(金) 21:25:10 ID:BJkXLB+P
英国のパワーポップバンド"SILVER SUN"
疾走感抜群のメロディ、Vo.ジェームス・ブロードのユーモラスな美声と
ちょっと電波な歌詞が魅力です。

NEW ALBUM“DAD'S WEIRD DREAM”近日発売。

公式サイト:http://www.silver-sun.co.uk/
シルチョコ:http://silchoco.exblog.jp/

前スレ
http://music4.2ch.net/test/read.cgi/musice/1124231380/

2 :ダイダラボッチ ◆DAWN6N.y5g :2006/07/21(金) 21:26:34 ID:reuX+afe
    .__
   J_†_|   / ̄ ̄ ̄ ̄ ̄ ̄ ̄ ̄ ̄ ̄ ̄ ̄ ̄ ̄ ̄ ̄ ̄ ̄
   (´ ∪`) <  悩める2ゲッター達よ、集いなさい。
   (∴〜∴) | 分かんないから2げっだします
   ハ ̄ ̄`つ | 自らの罪を告解し、逝きなさい。
  し ╋|   | 大いなる2ゲット神のもとに…ゲットー!
   |___|   \__________________
   ∪ ∪


3 :名盤さん:2006/07/21(金) 21:50:19 ID:iRZM1EhX
>>1
乙!



4 :名盤さん:2006/07/21(金) 22:34:16 ID:SBaJNI81
>>1
乙です!!

5 :名盤さん:2006/07/21(金) 23:20:33 ID:7lqHa/AU
>>1
乙!
5ゲット

6 :名盤さん:2006/07/21(金) 23:26:01 ID:W3paapTe
乙ジェームス
(〇U〇)

7 :1:2006/07/21(金) 23:53:52 ID:BJkXLB+P
つ ちなみにhtml化された関連スレ。

ThereGoesSummer★シルヴァーサン
http://music.2ch.net/musice/kako/1030/10308/1030815692.html

シルヴァーサン★★★SILVER SUN☆☆☆
http://music.2ch.net/musice/kako/1025/10257/1025773767.html

おまえらシルヴァーサンを忘れるなよ
http://cheese.2ch.net/musice/kako/988/988445257.html


8 :名盤さん:2006/07/22(土) 00:49:57 ID:wh/ityPa
>>1さん乙
>>7の過去ログ読んでると1000レス行ったのが奇跡みたいなもんだなw

9 :名盤さん:2006/07/22(土) 00:57:07 ID:NtdrvotG
>>7
不遇な時代を生き抜いて、大阪のあの盛り上がり・・・。
泣けてくるわ。

10 :名盤さん:2006/07/22(土) 02:00:26 ID:ZW/CFxOG
大阪よかったね、リチャードの阪神タイガース大好きってリップサービス
あったし。聴きたい曲まだまだあったけど次の楽しみにします。
大阪行かれた方に質問ですけど、ライヴ終わったすぐ後にかかった曲甘めで
ポップで自分好みで気になってるんですが誰の曲か教えてくれませんですか?



11 :名盤さん:2006/07/22(土) 09:28:50 ID:jtUt5yZV
>>10
新作が流れてたんだと!

12 :名盤さん:2006/07/22(土) 11:21:33 ID:XaNH9yqC
1000 名前:名盤さん 投稿日:2006/07/22(土) 11:17:09 ID:XaNH9yqC
1000ならsecond Saturdayと日本に来る



ヽ(゚∀゚ )ノ !!

13 :名盤さん:2006/07/22(土) 12:30:09 ID:7vUXgq1G
早くニューアルバム聞きたいね

14 :名盤さん :2006/07/22(土) 14:20:16 ID:jtUt5yZV
>>12
S I L V E R…とラストのとこ、笑いました☆
ほんっとまた来て欲しい!


15 :名盤さん:2006/07/22(土) 15:45:06 ID:tTZ5Yqmk
やっと2ndゲットでけたー!
ケースにヒビ入ってるけど帯つきで\650なら文句は言えないな、うん。

16 :名盤さん:2006/07/22(土) 16:33:10 ID:H3LrsUjY
今日暇だったからGolden Skinおこしてみた。

イントロ
A
------------------------------------------
------------------------------------------
------------------------------------------
---------9----------------------9---------
12-12--------12-9-12--------------12-9-12-
---------------------9-10-11-12-----------

on an 〜 late show tha't where 〜 goes
A      D(E)    D          A x2

every magazine 〜
D
shes got 〜 skin 〜 door 〜 light in
A       B7    D        A

2番略

open the door open the door   and let the light in
A                  D x4

17 :名盤さん:2006/07/22(土) 16:34:17 ID:H3LrsUjY
間奏
A                     D
-------------------------------------------------------------
0-2-2--2-0-0-0-0-2-2--2-0-0-0--------------------------------
-------------------------------------------------------------
------------------------------4-4-4-2------2-2-2-4-2-2-------
-------------------------------------------------------------
-------------------------------------------------------------
A                     D
------------------------------2-2-2--0--0-0--0-0-0-0-0-0-----
0-2-2--2-0-0-0-0-2-2--2-0-0-0--------------------------------
-------------------------------------------------------------
-------------------------------------------------------------
-------------------------------------------------------------
-------------------------------------------------------------
A                     D
-------------------------------------------------------------
0-2-2--2-0-0-0-0-2-2--2-0-0-0--------------------------------
-------------------------------------------------------------
------------------------------4-4-4--2-----4-2-4-2-4-2-4-2-4-2-
-------------------------------------------------------------
-------------------------------------------------------------
A                    D
---------0-0--0-2-2--2-4-4---4-5-5--5--5-5--5-5-5-5-5----------
0-2-2--2-------------------------------------------------------
---------------------------------------------------------------
---------------------------------------------------------------
---------------------------------------------------------------
---------------------------------------------------------------

18 :名盤さん:2006/07/22(土) 16:35:49 ID:H3LrsUjY
shes got 〜 skin 〜 door 〜 light in
A       B7    D

shes got 〜 skin 〜 door 〜 light in
A       B7    D      A  

open the door 〜 light in
      D       A x2


ところどころ違うけど、マンドクセ('A`) で許してください。

19 :名盤さん:2006/07/22(土) 16:37:27 ID:H3LrsUjY
イントロのローコードだとこんな感じ。

-------------------------------------
---------------------------0---------
2--2----4----2---2-----------2---2---
---------------4-----0-1-2-----4-----
-------------------4-----------------
-------------------------------------

誰かギターうまい人補足ヨロ。

長文スマソ。

20 :名盤さん:2006/07/22(土) 19:47:10 ID:29NX+ttn
汁婆さん

21 :名盤さん:2006/07/22(土) 20:39:22 ID:Clujv1GB
ちょ神降臨 チアリーディングもお願い神様

22 :名盤さん:2006/07/22(土) 22:01:32 ID:oBoQJSnz
こんないいバンドの知名度がほぼ皆無なのが非常に寂しい。
もっと売れて、「あの伝説の大阪ライブに行ったんだぜ!」って自慢できるようになりたい。


23 :名盤さん:2006/07/22(土) 22:43:56 ID:jgKWNcIQ
Nano-Fesの公式に載ってた

[07.16]
01.Tokyo E Ikitai
02.Lies
03.Can't Get You Out Of My Head
04.Bubblegum
05.Service
06.Lava
07.Scared
08.Pipsqueak
09.Immediate
10.Golden Skin
11.I'll See You Around

[07.17]
01.Last Day
02.Lies
03.Yellow Light
04.Pipsqueak
05.Immediate
06.Scared
07.Can't Get You Out Of My Head
08.Bubblegum
09.Lava
10.I'll See You Around
11.Golden Skin

24 :名盤さん:2006/07/22(土) 23:15:40 ID:ZW/CFxOG
>>11
ジェームスの声じゃないし新譜はライヴでも何曲か演ってたし
新譜の感じ何となくどんなのか分かったし 誰の曲かまだ気になってます
ちなみに大阪は21曲だよね

25 :名盤さん:2006/07/23(日) 02:23:14 ID:JohhBR7i
代官山のライブを見てて、ジェームスは髪短いとバディ・ホリーに似てると思った。


26 :名盤さん:2006/07/23(日) 10:22:04 ID:IlTLdHbF
>>16
うわーーー!!!有難う。さっそく弾こう。
俺もチアリーディングもよければお願いしたいです

27 :名盤さん:2006/07/24(月) 14:16:03 ID:0BflGNQO
ナノのセットリ間違い多くね?

28 :名盤さん:2006/07/24(月) 17:34:17 ID:2b5djW76
ユーアヒア、ブクオフで見つけたから買ってきた!
レイブとラストデイは1stとかぶってるのね…
これVer違いとかではないよね?同じ音源?

29 :名盤さん:2006/07/25(火) 00:55:04 ID:wB7a5edo
レイブ?w ラーヴァでしょ。

30 :名盤さん:2006/07/25(火) 01:46:48 ID:OnlM2SjE
頭弱いのバレた。ごめんなさい。ラーヴァです。

31 :名盤さん:2006/07/25(火) 02:29:11 ID:wB7a5edo
なんかこっちも嫌な言い方してすまぬ。
その二曲はたぶんバージョン違いとかではないと思うよ。
そんなに詳しいわけじゃないから断言はできないんだけれども。

32 :名盤さん:2006/07/25(火) 03:53:49 ID:Rl/AI5NR
LastDayはアルバムバージョンだと前の曲から続いてるからそこだけ違うんじゃない?
Lavaの違いはわからん。たぶん一緒なんじゃないかな。

33 :名盤さん:2006/07/25(火) 13:34:15 ID:7FOch0LJ
私設のblogだから貼っちゃいけないかなと思ったけど
これは事実か否かww
ht tp://d.hatena.ne.jp/h-wtnb/20060724

詳しい話知ってる人キボン

34 :名盤さん:2006/07/25(火) 14:37:54 ID:TFBWgfz4
Lavaも1stのは曲の始めに「カチッ」って音が入ってるけど
YouAreHereのは入ってない。

35 :名盤さん:2006/07/25(火) 20:08:03 ID:MCQtOn6r
>>33
本当だったらワロスw

36 :名盤さん:2006/07/26(水) 20:22:03 ID:qY8pmKgI
近くの中古屋で1stが未開封ステッカー付で700円シングルのLavaが550円で
買ったけどかなり得だよな?


37 :名盤さん:2006/07/26(水) 20:57:46 ID:L0iyXze2
>>36
LAVAは高すぎなような・・・

38 :名盤さん:2006/07/27(木) 14:23:51 ID:Jd0PXQ77
>>22
むしろある時代の洋楽リスナーにとっては
「そういや昔日本でも大プッシュしてたよね。ロキノンとか載ったりとか。あっという間に消えたねpp」
とか思われてるのがなんとも。 こういうジャンルが好きでもないのに
ポストブリットポップの青田買いしたいだけで買った人らが中古に売るに出してるんだろうか?

39 :名盤さん:2006/07/27(木) 16:18:04 ID:mFNNSkfe
今日TSUTAYAで1STを105円で買った。

すげー良い買い物しました。
このようなものが105円って少し複雑ですね

40 :名盤さん:2006/07/27(木) 17:41:45 ID:OFidPjWW
ロキノンは確かに大プッシュしてたねー。 実際漏れそれで知ったし。
WeezerのUKからの返答!とかいって煽ってた。雑誌の影響って大きいよな。

今は雑誌何も読まないから知らないんだけど、3rd発売ん時って雑誌取り上げての?
外資系レコ屋ではそれなりにプロモしてたけど。

41 :名盤さん:2006/07/27(木) 18:19:24 ID:Q9+G4b0F
最近やっとBulletsの音源聞いたんだけど、
これがリリースされないなんて勿体無さ過ぎるだろ!
全部DanceWithMeみたいに再録してくれるのかな?
Impenetration、DressUpForMe、HighFivesなんて名曲だと思うんだけど…


42 :名盤さん:2006/07/27(木) 19:19:01 ID:T+dI/6z9
朝めざましTVでナノムゲンのコンピCDの放送してて
画面に一瞬SILVER SUNって映った(´ω`)

43 :名盤さん:2006/07/28(金) 10:26:28 ID:xR0mHqKR
>>40
全然。CDジャーナルだかミューマガだかリリース情報ぐらいはあったけど
当のロキノンなんて思いっきりスルーしてた。
ロキノンのタワレコのチラシに渋谷店の店長お勧めで出てたくらい。
軽く泣けた。


44 :名盤さん:2006/07/28(金) 10:52:06 ID:M991R5U+
逆にクッキーシーンではとり上げるのが早すぎてタイムリーじゃなかったな。
完成の情報〜発売まで時間かかったじゃない。

45 :名盤さん:2006/07/28(金) 12:31:03 ID:3m0JP325
シルバーサン水飲まないで保管したらいつか腐る?

46 :名盤さん:2006/07/28(金) 16:54:07 ID:+6ivyfSz
俺は別にロキノンなんかに載って欲しくないけどな。。
タワレコの店長お勧めとかの方がなんか良い様な気がする。。

47 :名盤さん:2006/07/28(金) 17:25:03 ID:Fh2JPddo
誰も載って欲しいとはいってないよ。

13 KB
■ このスレッドは過去ログ倉庫に格納されています

★スマホ版★ 掲示板に戻る 全部 前100 次100 最新50

read.cgi ver 05.02.02 2014/06/23 Mango Mangüé ★
FOX ★ DSO(Dynamic Shared Object)